ISO-10303-21;
HEADER;
FILE_DESCRIPTION (( 'STEP AP214' ),
    '1' );
FILE_NAME ('am-3947a-375 375H x 375IN Spacer.STEP',
    '2025-02-06T16:32:15',
    ( '' ),
    ( '' ),
    'SwSTEP 2.0',
    'SolidWorks 2024',
    '' );
FILE_SCHEMA (( 'AUTOMOTIVE_DESIGN' ));
ENDSEC;

DATA;
#1 = FACE_OUTER_BOUND ( 'NONE', #268, .T. ) ;
#2 = AXIS2_PLACEMENT_3D ( 'NONE', #119, #271, #41 ) ;
#3 =( NAMED_UNIT ( * ) PLANE_ANGLE_UNIT ( ) SI_UNIT ( $, .RADIAN. ) );
#4 = ORIENTED_EDGE ( 'NONE', *, *, #157, .F. ) ;
#5 = DIRECTION ( 'NONE',  ( -0.000000000000000000, -0.000000000000000000, -1.000000000000000000 ) ) ;
#6 = ORIENTED_EDGE ( 'NONE', *, *, #148, .F. ) ;
#7 = SURFACE_SIDE_STYLE ('',( #39 ) ) ;
#8 = ORIENTED_EDGE ( 'NONE', *, *, #117, .T. ) ;
#9 = AXIS2_PLACEMENT_3D ( 'NONE', #285, #230, #51 ) ;
#10 = ORIENTED_EDGE ( 'NONE', *, *, #261, .F. ) ;
#11 = EDGE_CURVE ( 'NONE', #136, #111, #323, .T. ) ;
#12 = PLANE ( 'NONE',  #263 ) ;
#13 = EDGE_LOOP ( 'NONE', ( #30, #36, #264, #245 ) ) ;
#14 = DIRECTION ( 'NONE',  ( -1.000000000000000000, 0.000000000000000000, 0.000000000000000000 ) ) ;
#15 = PLANE ( 'NONE',  #2 ) ;
#16 = VECTOR ( 'NONE', #251, 39.37007874015748143 ) ;
#17 = CARTESIAN_POINT ( 'NONE',  ( 0.2170837012152992962, -8.629126648930641522E-21, 0.3750000000000000555 ) ) ;
#18 = DIRECTION ( 'NONE',  ( 0.000000000000000000, 0.000000000000000000, 1.000000000000000000 ) ) ;
#19 = PLANE ( 'NONE',  #211 ) ;
#20 = DIRECTION ( 'NONE',  ( -0.000000000000000000, -0.000000000000000000, -1.000000000000000000 ) ) ;
#21 = EDGE_CURVE ( 'NONE', #322, #84, #224, .T. ) ;
#22 = DIRECTION ( 'NONE',  ( -1.000000000000000000, 0.000000000000000000, 0.000000000000000000 ) ) ;
#23 = DIRECTION ( 'NONE',  ( -0.000000000000000000, -0.000000000000000000, -1.000000000000000000 ) ) ;
#24 = ADVANCED_FACE ( 'NONE', ( #66, #96 ), #326, .F. ) ;
#25 = CARTESIAN_POINT ( 'NONE',  ( -0.3125000000000000000, 0.000000000000000000, 0.3750000000000000555 ) ) ;
#26 = VECTOR ( 'NONE', #149, 39.37007874015748143 ) ;
#27 = DIRECTION ( 'NONE',  ( 0.5000000000000001110, 0.8660254037844385966, 0.000000000000000000 ) ) ;
#28 = DIRECTION ( 'NONE',  ( 0.5000000000000001110, -0.8660254037844385966, 0.000000000000000000 ) ) ;
#29 =( LENGTH_UNIT ( ) NAMED_UNIT ( * ) SI_UNIT ( $, .METRE. ) );
#30 = ORIENTED_EDGE ( 'NONE', *, *, #82, .F. ) ;
#31 = AXIS2_PLACEMENT_3D ( 'NONE', #331, #327, #101 ) ;
#32 = SURFACE_STYLE_USAGE ( .BOTH. , #7 ) ;
#33 = ORIENTED_EDGE ( 'NONE', *, *, #308, .T. ) ;
#34 =( NAMED_UNIT ( * ) PLANE_ANGLE_UNIT ( ) SI_UNIT ( $, .RADIAN. ) );
#35 = VERTEX_POINT ( 'NONE', #320 ) ;
#36 = ORIENTED_EDGE ( 'NONE', *, *, #72, .F. ) ;
#37 = EDGE_CURVE ( 'NONE', #195, #313, #301, .T. ) ;
#38 = CIRCLE ( 'NONE', #163, 0.3125000000000000000 ) ;
#39 = SURFACE_STYLE_FILL_AREA ( #244 ) ;
#40 = EDGE_LOOP ( 'NONE', ( #10, #91, #266, #289 ) ) ;
#41 = DIRECTION ( 'NONE',  ( 1.000000000000000000, 0.000000000000000000, -0.000000000000000000 ) ) ;
#42 = APPLICATION_PROTOCOL_DEFINITION ( 'draft international standard', 'automotive_design', 1998, #93 ) ;
#43 = DIRECTION ( 'NONE',  ( -0.8660254037844385966, 0.5000000000000002220, 0.000000000000000000 ) ) ;
#44 = DIRECTION ( 'NONE',  ( 1.000000000000000000, 0.000000000000000000, -0.000000000000000000 ) ) ;
#45 = CARTESIAN_POINT ( 'NONE',  ( -0.1085418506076496065, -0.1879999999999999727, 0.3750000000000000555 ) ) ;
#46 = CARTESIAN_POINT ( 'NONE',  ( 0.1085418506076495232, 0.1880000000000000282, 0.000000000000000000 ) ) ;
#47 = CARTESIAN_POINT ( 'NONE',  ( 0.2170837012152992962, -8.629126648930641522E-21, 0.000000000000000000 ) ) ;
#48 = VECTOR ( 'NONE', #118, 39.37007874015748143 ) ;
#49 = DIRECTION ( 'NONE',  ( 1.000000000000000000, 0.000000000000000000, 0.000000000000000000 ) ) ;
#50 = CARTESIAN_POINT ( 'NONE',  ( 0.000000000000000000, 0.000000000000000000, 0.3750000000000000555 ) ) ;
#51 = DIRECTION ( 'NONE',  ( 1.000000000000000000, 0.000000000000000000, 0.000000000000000000 ) ) ;
#52 = MECHANICAL_DESIGN_GEOMETRIC_PRESENTATION_REPRESENTATION (  '', ( #269 ), #274 ) ;
#53 = FACE_OUTER_BOUND ( 'NONE', #191, .T. ) ;
#54 = EDGE_CURVE ( 'NONE', #73, #267, #68, .T. ) ;
#55 = EDGE_LOOP ( 'NONE', ( #213, #200, #240, #167 ) ) ;
#56 = VECTOR ( 'NONE', #80, 39.37007874015748143 ) ;
#57 = ORIENTED_EDGE ( 'NONE', *, *, #69, .F. ) ;
#58 = PRODUCT_RELATED_PRODUCT_CATEGORY ( 'part', '', ( #132 ) ) ;
#59 = LINE ( 'NONE', #138, #189 ) ;
#60 = ADVANCED_FACE ( 'NONE', ( #272 ), #19, .T. ) ;
#61 = ORIENTED_EDGE ( 'NONE', *, *, #130, .T. ) ;
#62 = ORIENTED_EDGE ( 'NONE', *, *, #143, .F. ) ;
#63 = VECTOR ( 'NONE', #49, 39.37007874015748143 ) ;
#64 = VERTEX_POINT ( 'NONE', #151 ) ;
#65 = CARTESIAN_POINT ( 'NONE',  ( -0.2170837012152992962, -6.822844948385385685E-21, 0.3750000000000000555 ) ) ;
#66 = FACE_OUTER_BOUND ( 'NONE', #137, .T. ) ;
#67 = VECTOR ( 'NONE', #276, 39.37007874015748143 ) ;
#68 = LINE ( 'NONE', #95, #26 ) ;
#69 = EDGE_CURVE ( 'NONE', #64, #136, #250, .T. ) ;
#70 = UNCERTAINTY_MEASURE_WITH_UNIT (LENGTH_MEASURE( 1.000000000000000082E-05 ), #238, 'distance_accuracy_value', 'NONE');
#71 = DIRECTION ( 'NONE',  ( 0.000000000000000000, 0.000000000000000000, 1.000000000000000000 ) ) ;
#72 = EDGE_CURVE ( 'NONE', #322, #313, #146, .T. ) ;
#73 = VERTEX_POINT ( 'NONE', #253 ) ;
#74 = PLANE ( 'NONE',  #254 ) ;
#75 = PRESENTATION_LAYER_ASSIGNMENT (  '', '', ( #269 ) ) ;
#76 = EDGE_CURVE ( 'NONE', #108, #267, #197, .T. ) ;
#77 = PLANE ( 'NONE',  #31 ) ;
#78 = PRODUCT_DEFINITION_CONTEXT ( 'detailed design', #236, 'design' ) ;
#79 = DIRECTION ( 'NONE',  ( -0.5000000000000004441, 0.8660254037844383745, 0.000000000000000000 ) ) ;
#80 = DIRECTION ( 'NONE',  ( -0.000000000000000000, -0.000000000000000000, -1.000000000000000000 ) ) ;
#81 = AXIS2_PLACEMENT_3D ( 'NONE', #242, #159, #220 ) ;
#82 = EDGE_CURVE ( 'NONE', #313, #73, #123, .T. ) ;
#83 = DIRECTION ( 'NONE',  ( 0.5000000000000004441, -0.8660254037844383745, 0.000000000000000000 ) ) ;
#84 = VERTEX_POINT ( 'NONE', #65 ) ;
#85 = CARTESIAN_POINT ( 'NONE',  ( 0.2170837012152992962, -8.629126648930641522E-21, 0.3750000000000000555 ) ) ;
#86 = ORIENTED_EDGE ( 'NONE', *, *, #275, .F. ) ;
#87 = AXIS2_PLACEMENT_3D ( 'NONE', #287, #190, #262 ) ;
#88 = LENGTH_MEASURE_WITH_UNIT ( LENGTH_MEASURE( 0.02539999999999999897 ), #29 );
#89 = EDGE_LOOP ( 'NONE', ( #165, #4, #33, #203 ) ) ;
#90 = ORIENTED_EDGE ( 'NONE', *, *, #252, .F. ) ;
#91 = ORIENTED_EDGE ( 'NONE', *, *, #130, .F. ) ;
#92 = VECTOR ( 'NONE', #5, 39.37007874015748143 ) ;
#93 = APPLICATION_CONTEXT ( 'automotive_design' ) ;
#94 = DIRECTION ( 'NONE',  ( 0.000000000000000000, -0.000000000000000000, -1.000000000000000000 ) ) ;
#95 = CARTESIAN_POINT ( 'NONE',  ( -0.2170837012152992962, -6.822844948385385685E-21, 0.000000000000000000 ) ) ;
#96 = FACE_BOUND ( 'NONE', #162, .T. ) ;
#97 = ADVANCED_FACE ( 'NONE', ( #227 ), #324, .T. ) ;
#98 = VECTOR ( 'NONE', #207, 39.37007874015748143 ) ;
#99 = CARTESIAN_POINT ( 'NONE',  ( -0.1085418506076496065, 0.1880000000000000282, 0.3750000000000000555 ) ) ;
#100 = FACE_BOUND ( 'NONE', #294, .T. ) ;
#101 = DIRECTION ( 'NONE',  ( 0.5000000000000002220, 0.8660254037844385966, 0.000000000000000000 ) ) ;
#102 = CARTESIAN_POINT ( 'NONE',  ( 0.2170837012152992962, -8.629126648930641522E-21, 0.000000000000000000 ) ) ;
#103 = AXIS2_PLACEMENT_3D ( 'NONE', #273, #71, #44 ) ;
#104 = CARTESIAN_POINT ( 'NONE',  ( 0.1085418506076496203, -0.1879999999999999727, 0.3750000000000000555 ) ) ;
#105 = CARTESIAN_POINT ( 'NONE',  ( 0.000000000000000000, 0.000000000000000000, 0.3750000000000000555 ) ) ;
#106 = ADVANCED_FACE ( 'NONE', ( #201, #100 ), #15, .T. ) ;
#107 = CARTESIAN_POINT ( 'NONE',  ( -0.1085418506076496065, -0.1879999999999999727, 0.3750000000000000555 ) ) ;
#108 = VERTEX_POINT ( 'NONE', #145 ) ;
#109 = ORIENTED_EDGE ( 'NONE', *, *, #166, .T. ) ;
#110 = CARTESIAN_POINT ( 'NONE',  ( 0.3125000000000000000, 3.827021247335477694E-17, 0.3750000000000000555 ) ) ;
#111 = VERTEX_POINT ( 'NONE', #257 ) ;
#112 = VECTOR ( 'NONE', #28, 39.37007874015748143 ) ;
#113 = DIRECTION ( 'NONE',  ( -0.000000000000000000, -0.000000000000000000, -1.000000000000000000 ) ) ;
#114 = ORIENTED_EDGE ( 'NONE', *, *, #76, .F. ) ;
#115 = LINE ( 'NONE', #192, #168 ) ;
#116 = ORIENTED_EDGE ( 'NONE', *, *, #193, .F. ) ;
#117 = EDGE_CURVE ( 'NONE', #111, #195, #182, .T. ) ;
#118 = DIRECTION ( 'NONE',  ( -0.000000000000000000, -0.000000000000000000, -1.000000000000000000 ) ) ;
#119 = CARTESIAN_POINT ( 'NONE',  ( 0.000000000000000000, 0.000000000000000000, 0.3750000000000000555 ) ) ;
#120 = CARTESIAN_POINT ( 'NONE',  ( 0.1085418506076495232, 0.1880000000000000282, 0.3750000000000000555 ) ) ;
#121 = DIRECTION ( 'NONE',  ( -0.5000000000000001110, -0.8660254037844385966, 0.000000000000000000 ) ) ;
#122 = VECTOR ( 'NONE', #225, 39.37007874015748143 ) ;
#123 = LINE ( 'NONE', #229, #258 ) ;
#124 = LINE ( 'NONE', #176, #305 ) ;
#125 = CARTESIAN_POINT ( 'NONE',  ( 0.1085418506076495232, 0.1880000000000000282, 0.3750000000000000555 ) ) ;
#126 = FACE_OUTER_BOUND ( 'NONE', #89, .T. ) ;
#127 =( GEOMETRIC_REPRESENTATION_CONTEXT ( 3 ) GLOBAL_UNCERTAINTY_ASSIGNED_CONTEXT ( ( #70 ) ) GLOBAL_UNIT_ASSIGNED_CONTEXT ( ( #238, #34, #292 ) ) REPRESENTATION_CONTEXT ( 'NONE', 'WORKASPACE' ) );
#128 = DIRECTION ( 'NONE',  ( 1.000000000000000000, 0.000000000000000000, 0.000000000000000000 ) ) ;
#129 = EDGE_CURVE ( 'NONE', #84, #108, #232, .T. ) ;
#130 = EDGE_CURVE ( 'NONE', #64, #241, #131, .T. ) ;
#131 = LINE ( 'NONE', #104, #98 ) ;
#132 = PRODUCT ( 'am-3947a-375 375H x 375IN Spacer', 'am-3947a-375 375H x 375IN Spacer', '', ( #226 ) ) ;
#133 =( LENGTH_UNIT ( ) NAMED_UNIT ( * ) SI_UNIT ( $, .METRE. ) );
#134 = VERTEX_POINT ( 'NONE', #25 ) ;
#135 = PRESENTATION_STYLE_ASSIGNMENT (( #32 ) ) ;
#136 = VERTEX_POINT ( 'NONE', #306 ) ;
#137 = EDGE_LOOP ( 'NONE', ( #186, #86 ) ) ;
#138 = CARTESIAN_POINT ( 'NONE',  ( -0.2170837012152992962, -6.822844948385385685E-21, 0.3750000000000000555 ) ) ;
#139 = ORIENTED_EDGE ( 'NONE', *, *, #82, .T. ) ;
#140 = AXIS2_PLACEMENT_3D ( 'NONE', #296, #43, #222 ) ;
#141 =( NAMED_UNIT ( * ) SI_UNIT ( $, .STERADIAN. ) SOLID_ANGLE_UNIT ( ) );
#142 = ORIENTED_EDGE ( 'NONE', *, *, #157, .T. ) ;
#143 = EDGE_CURVE ( 'NONE', #267, #241, #124, .T. ) ;
#144 = APPLICATION_PROTOCOL_DEFINITION ( 'draft international standard', 'automotive_design', 1998, #236 ) ;
#145 = CARTESIAN_POINT ( 'NONE',  ( -0.1085418506076496065, -0.1879999999999999727, 0.3750000000000000555 ) ) ;
#146 = LINE ( 'NONE', #99, #48 ) ;
#147 = AXIS2_PLACEMENT_3D ( 'NONE', #281, #156, #235 ) ;
#148 = EDGE_CURVE ( 'NONE', #108, #64, #178, .T. ) ;
#149 = DIRECTION ( 'NONE',  ( 0.5000000000000001110, -0.8660254037844385966, 0.000000000000000000 ) ) ;
#150 = ORIENTED_EDGE ( 'NONE', *, *, #277, .T. ) ;
#151 = CARTESIAN_POINT ( 'NONE',  ( 0.1085418506076496203, -0.1879999999999999727, 0.3750000000000000555 ) ) ;
#152 = AXIS2_PLACEMENT_3D ( 'NONE', #199, #18, #300 ) ;
#153 = DIRECTION ( 'NONE',  ( 0.000000000000000000, -0.000000000000000000, 1.000000000000000000 ) ) ;
#154 = DIRECTION ( 'NONE',  ( 0.000000000000000000, 0.000000000000000000, 1.000000000000000000 ) ) ;
#155 = DIRECTION ( 'NONE',  ( -0.000000000000000000, -0.000000000000000000, -1.000000000000000000 ) ) ;
#156 = DIRECTION ( 'NONE',  ( -0.000000000000000000, -0.000000000000000000, -1.000000000000000000 ) ) ;
#157 = EDGE_CURVE ( 'NONE', #134, #247, #325, .T. ) ;
#158 = CARTESIAN_POINT ( 'NONE',  ( 0.1085418506076495232, 0.1880000000000000282, 0.3750000000000000555 ) ) ;
#159 = DIRECTION ( 'NONE',  ( 0.000000000000000000, 0.000000000000000000, 1.000000000000000000 ) ) ;
#160 = ADVANCED_FACE ( 'NONE', ( #333 ), #77, .T. ) ;
#161 = PLANE ( 'NONE',  #87 ) ;
#162 = EDGE_LOOP ( 'NONE', ( #248, #314, #164, #139, #215, #194 ) ) ;
#163 = AXIS2_PLACEMENT_3D ( 'NONE', #50, #260, #128 ) ;
#164 = ORIENTED_EDGE ( 'NONE', *, *, #37, .T. ) ;
#165 = ORIENTED_EDGE ( 'NONE', *, *, #277, .F. ) ;
#166 = EDGE_CURVE ( 'NONE', #111, #322, #205, .T. ) ;
#167 = ORIENTED_EDGE ( 'NONE', *, *, #76, .T. ) ;
#168 = VECTOR ( 'NONE', #113, 39.37007874015748143 ) ;
#169 = ORIENTED_EDGE ( 'NONE', *, *, #193, .T. ) ;
#170 = ORIENTED_EDGE ( 'NONE', *, *, #148, .T. ) ;
#171 = ADVANCED_FACE ( 'NONE', ( #53 ), #309, .T. ) ;
#172 = ORIENTED_EDGE ( 'NONE', *, *, #275, .T. ) ;
#173 = CARTESIAN_POINT ( 'NONE',  ( 0.1085418506076496203, -0.1879999999999999727, 0.3750000000000000555 ) ) ;
#174 = ORIENTED_EDGE ( 'NONE', *, *, #72, .T. ) ;
#175 = UNCERTAINTY_MEASURE_WITH_UNIT (LENGTH_MEASURE( 1.000000000000000082E-05 ), #214, 'distance_accuracy_value', 'NONE');
#176 = CARTESIAN_POINT ( 'NONE',  ( -0.1085418506076496065, -0.1879999999999999727, 0.000000000000000000 ) ) ;
#177 = PRODUCT_DEFINITION ( 'UNKNOWN', '', #218, #78 ) ;
#178 = LINE ( 'NONE', #283, #63 ) ;
#179 = DIRECTION ( 'NONE',  ( -1.000000000000000000, 0.000000000000000000, 0.000000000000000000 ) ) ;
#180 = EDGE_CURVE ( 'NONE', #298, #35, #223, .T. ) ;
#181 = CARTESIAN_POINT ( 'NONE',  ( 0.1085418506076496203, -0.1879999999999999727, 0.000000000000000000 ) ) ;
#182 = LINE ( 'NONE', #125, #246 ) ;
#183 = AXIS2_PLACEMENT_3D ( 'NONE', #259, #154, #279 ) ;
#184 = CARTESIAN_POINT ( 'NONE',  ( -0.1085418506076496065, 0.1880000000000000282, 0.000000000000000000 ) ) ;
#185 = LINE ( 'NONE', #110, #92 ) ;
#186 = ORIENTED_EDGE ( 'NONE', *, *, #180, .F. ) ;
#187 = FACE_OUTER_BOUND ( 'NONE', #198, .T. ) ;
#188 = ORIENTED_EDGE ( 'NONE', *, *, #11, .F. ) ;
#189 = VECTOR ( 'NONE', #265, 39.37007874015748143 ) ;
#190 = DIRECTION ( 'NONE',  ( 0.8660254037844385966, 0.5000000000000002220, -0.000000000000000000 ) ) ;
#191 = EDGE_LOOP ( 'NONE', ( #116, #150, #172, #319 ) ) ;
#192 = CARTESIAN_POINT ( 'NONE',  ( -0.3125000000000000000, 0.000000000000000000, 0.3750000000000000555 ) ) ;
#193 = EDGE_CURVE ( 'NONE', #247, #134, #38, .T. ) ;
#194 = ORIENTED_EDGE ( 'NONE', *, *, #143, .T. ) ;
#195 = VERTEX_POINT ( 'NONE', #208 ) ;
#196 = VECTOR ( 'NONE', #79, 39.37007874015748143 ) ;
#197 = LINE ( 'NONE', #45, #206 ) ;
#198 = EDGE_LOOP ( 'NONE', ( #90, #293, #302, #8 ) ) ;
#199 = CARTESIAN_POINT ( 'NONE',  ( 0.000000000000000000, 0.000000000000000000, 0.000000000000000000 ) ) ;
#200 = ORIENTED_EDGE ( 'NONE', *, *, #299, .F. ) ;
#201 = FACE_OUTER_BOUND ( 'NONE', #303, .T. ) ;
#202 = ADVANCED_FACE ( 'NONE', ( #1 ), #74, .T. ) ;
#203 = ORIENTED_EDGE ( 'NONE', *, *, #180, .T. ) ;
#204 = PRODUCT_DEFINITION_SHAPE ( 'NONE', 'NONE',  #177 ) ;
#205 = LINE ( 'NONE', #158, #321 ) ;
#206 = VECTOR ( 'NONE', #20, 39.37007874015748143 ) ;
#207 = DIRECTION ( 'NONE',  ( -0.000000000000000000, -0.000000000000000000, -1.000000000000000000 ) ) ;
#208 = CARTESIAN_POINT ( 'NONE',  ( 0.1085418506076495232, 0.1880000000000000282, 0.000000000000000000 ) ) ;
#209 = LINE ( 'NONE', #181, #330 ) ;
#210 = DIRECTION ( 'NONE',  ( 0.000000000000000000, 1.000000000000000000, 0.000000000000000000 ) ) ;
#211 = AXIS2_PLACEMENT_3D ( 'NONE', #120, #249, #94 ) ;
#212 = CARTESIAN_POINT ( 'NONE',  ( -0.3125000000000000000, 0.000000000000000000, 0.000000000000000000 ) ) ;
#213 = ORIENTED_EDGE ( 'NONE', *, *, #54, .F. ) ;
#214 =( CONVERSION_BASED_UNIT ( 'INCH', #312 ) LENGTH_UNIT ( ) NAMED_UNIT ( #297 ) );
#215 = ORIENTED_EDGE ( 'NONE', *, *, #54, .T. ) ;
#216 = CARTESIAN_POINT ( 'NONE',  ( -0.1085418506076496065, 0.1880000000000000282, 0.3750000000000000555 ) ) ;
#217 = EDGE_LOOP ( 'NONE', ( #291, #317, #109, #174 ) ) ;
#218 = PRODUCT_DEFINITION_FORMATION_WITH_SPECIFIED_SOURCE ( 'ANY', '', #132, .NOT_KNOWN. ) ;
#219 = EDGE_CURVE ( 'NONE', #136, #221, #256, .T. ) ;
#220 = DIRECTION ( 'NONE',  ( 1.000000000000000000, 0.000000000000000000, 0.000000000000000000 ) ) ;
#221 = VERTEX_POINT ( 'NONE', #47 ) ;
#222 = DIRECTION ( 'NONE',  ( -0.5000000000000002220, -0.8660254037844385966, 0.000000000000000000 ) ) ;
#223 = CIRCLE ( 'NONE', #183, 0.3125000000000000000 ) ;
#224 = LINE ( 'NONE', #278, #122 ) ;
#225 = DIRECTION ( 'NONE',  ( -0.5000000000000001110, -0.8660254037844385966, 0.000000000000000000 ) ) ;
#226 = PRODUCT_CONTEXT ( 'NONE', #93, 'mechanical' ) ;
#227 = FACE_OUTER_BOUND ( 'NONE', #40, .T. ) ;
#228 = AXIS2_PLACEMENT_3D ( 'NONE', #105, #23, #22 ) ;
#229 = CARTESIAN_POINT ( 'NONE',  ( -0.1085418506076496065, 0.1880000000000000282, 0.000000000000000000 ) ) ;
#230 = DIRECTION ( 'NONE',  ( 0.000000000000000000, 0.000000000000000000, 1.000000000000000000 ) ) ;
#231 = CARTESIAN_POINT ( 'NONE',  ( 0.1085418506076496203, -0.1879999999999999727, 0.000000000000000000 ) ) ;
#232 = LINE ( 'NONE', #304, #112 ) ;
#233 = ADVANCED_BREP_SHAPE_REPRESENTATION ( 'am-3947a-375 375H x 375IN Spacer', ( #282, #152 ), #127 ) ;
#234 = CARTESIAN_POINT ( 'NONE',  ( -0.1085418506076496065, -0.1879999999999999727, 0.000000000000000000 ) ) ;
#235 = DIRECTION ( 'NONE',  ( -1.000000000000000000, 0.000000000000000000, 0.000000000000000000 ) ) ;
#236 = APPLICATION_CONTEXT ( 'automotive_design' ) ;
#237 = ADVANCED_FACE ( 'NONE', ( #126 ), #255, .T. ) ;
#238 =( CONVERSION_BASED_UNIT ( 'INCH', #88 ) LENGTH_UNIT ( ) NAMED_UNIT ( #318 ) );
#239 = CIRCLE ( 'NONE', #81, 0.3125000000000000000 ) ;
#240 = ORIENTED_EDGE ( 'NONE', *, *, #129, .T. ) ;
#241 = VERTEX_POINT ( 'NONE', #231 ) ;
#242 = CARTESIAN_POINT ( 'NONE',  ( 0.000000000000000000, 0.000000000000000000, 0.000000000000000000 ) ) ;
#243 = ORIENTED_EDGE ( 'NONE', *, *, #166, .F. ) ;
#244 = FILL_AREA_STYLE ('',( #288 ) ) ;
#245 = ORIENTED_EDGE ( 'NONE', *, *, #299, .T. ) ;
#246 = VECTOR ( 'NONE', #155, 39.37007874015748143 ) ;
#247 = VERTEX_POINT ( 'NONE', #328 ) ;
#248 = ORIENTED_EDGE ( 'NONE', *, *, #261, .T. ) ;
#249 = DIRECTION ( 'NONE',  ( 0.000000000000000000, -1.000000000000000000, 0.000000000000000000 ) ) ;
#250 = LINE ( 'NONE', #173, #67 ) ;
#251 = DIRECTION ( 'NONE',  ( -0.5000000000000004441, 0.8660254037844383745, 0.000000000000000000 ) ) ;
#252 = EDGE_CURVE ( 'NONE', #221, #195, #307, .T. ) ;
#253 = CARTESIAN_POINT ( 'NONE',  ( -0.2170837012152992962, -6.822844948385385685E-21, 0.000000000000000000 ) ) ;
#254 = AXIS2_PLACEMENT_3D ( 'NONE', #107, #210, #153 ) ;
#255 = CYLINDRICAL_SURFACE ( 'NONE', #228, 0.3125000000000000000 ) ;
#256 = LINE ( 'NONE', #311, #56 ) ;
#257 = CARTESIAN_POINT ( 'NONE',  ( 0.1085418506076495232, 0.1880000000000000282, 0.3750000000000000555 ) ) ;
#258 = VECTOR ( 'NONE', #121, 39.37007874015748143 ) ;
#259 = CARTESIAN_POINT ( 'NONE',  ( 0.000000000000000000, 0.000000000000000000, 0.000000000000000000 ) ) ;
#260 = DIRECTION ( 'NONE',  ( 0.000000000000000000, 0.000000000000000000, 1.000000000000000000 ) ) ;
#261 = EDGE_CURVE ( 'NONE', #241, #221, #209, .T. ) ;
#262 = DIRECTION ( 'NONE',  ( -0.5000000000000002220, 0.8660254037844385966, 0.000000000000000000 ) ) ;
#263 = AXIS2_PLACEMENT_3D ( 'NONE', #85, #315, #83 ) ;
#264 = ORIENTED_EDGE ( 'NONE', *, *, #21, .T. ) ;
#265 = DIRECTION ( 'NONE',  ( -0.000000000000000000, -0.000000000000000000, -1.000000000000000000 ) ) ;
#266 = ORIENTED_EDGE ( 'NONE', *, *, #69, .T. ) ;
#267 = VERTEX_POINT ( 'NONE', #234 ) ;
#268 = EDGE_LOOP ( 'NONE', ( #62, #114, #170, #61 ) ) ;
#269 = STYLED_ITEM ( 'NONE', ( #135 ), #282 ) ;
#270 = SHAPE_DEFINITION_REPRESENTATION ( #204, #233 ) ;
#271 = DIRECTION ( 'NONE',  ( 0.000000000000000000, 0.000000000000000000, 1.000000000000000000 ) ) ;
#272 = FACE_OUTER_BOUND ( 'NONE', #217, .T. ) ;
#273 = CARTESIAN_POINT ( 'NONE',  ( 0.000000000000000000, 0.000000000000000000, 0.000000000000000000 ) ) ;
#274 =( GEOMETRIC_REPRESENTATION_CONTEXT ( 3 ) GLOBAL_UNCERTAINTY_ASSIGNED_CONTEXT ( ( #175 ) ) GLOBAL_UNIT_ASSIGNED_CONTEXT ( ( #214, #3, #141 ) ) REPRESENTATION_CONTEXT ( 'NONE', 'WORKASPACE' ) );
#275 = EDGE_CURVE ( 'NONE', #35, #298, #239, .T. ) ;
#276 = DIRECTION ( 'NONE',  ( 0.5000000000000001110, 0.8660254037844385966, 0.000000000000000000 ) ) ;
#277 = EDGE_CURVE ( 'NONE', #247, #35, #185, .T. ) ;
#278 = CARTESIAN_POINT ( 'NONE',  ( -0.1085418506076496065, 0.1880000000000000282, 0.3750000000000000555 ) ) ;
#279 = DIRECTION ( 'NONE',  ( 1.000000000000000000, 0.000000000000000000, 0.000000000000000000 ) ) ;
#280 = DIRECTION ( 'NONE',  ( 1.000000000000000000, 0.000000000000000000, 0.000000000000000000 ) ) ;
#281 = CARTESIAN_POINT ( 'NONE',  ( 0.000000000000000000, 0.000000000000000000, 0.3750000000000000555 ) ) ;
#282 = MANIFOLD_SOLID_BREP ( 'Boss-Extrude1', #284 ) ;
#283 = CARTESIAN_POINT ( 'NONE',  ( -0.1085418506076496065, -0.1879999999999999727, 0.3750000000000000555 ) ) ;
#284 = CLOSED_SHELL ( 'NONE', ( #171, #106, #24, #237, #97, #286, #60, #160, #332, #202 ) ) ;
#285 = CARTESIAN_POINT ( 'NONE',  ( 0.000000000000000000, 0.000000000000000000, 0.3750000000000000555 ) ) ;
#286 = ADVANCED_FACE ( 'NONE', ( #187 ), #12, .T. ) ;
#287 = CARTESIAN_POINT ( 'NONE',  ( -0.2170837012152992962, -6.822844948385385685E-21, 0.3750000000000000555 ) ) ;
#288 = FILL_AREA_STYLE_COLOUR ( '', #329 ) ;
#289 = ORIENTED_EDGE ( 'NONE', *, *, #219, .T. ) ;
#290 = FACE_OUTER_BOUND ( 'NONE', #55, .T. ) ;
#291 = ORIENTED_EDGE ( 'NONE', *, *, #37, .F. ) ;
#292 =( NAMED_UNIT ( * ) SI_UNIT ( $, .STERADIAN. ) SOLID_ANGLE_UNIT ( ) );
#293 = ORIENTED_EDGE ( 'NONE', *, *, #219, .F. ) ;
#294 = EDGE_LOOP ( 'NONE', ( #188, #57, #6, #295, #316, #243 ) ) ;
#295 = ORIENTED_EDGE ( 'NONE', *, *, #129, .F. ) ;
#296 = CARTESIAN_POINT ( 'NONE',  ( 0.1085418506076496203, -0.1879999999999999727, 0.3750000000000000555 ) ) ;
#297 = DIMENSIONAL_EXPONENTS ( 1.000000000000000000, 0.000000000000000000, 0.000000000000000000, 0.000000000000000000, 0.000000000000000000, 0.000000000000000000, 0.000000000000000000 ) ;
#298 = VERTEX_POINT ( 'NONE', #212 ) ;
#299 = EDGE_CURVE ( 'NONE', #84, #73, #59, .T. ) ;
#300 = DIRECTION ( 'NONE',  ( 1.000000000000000000, 0.000000000000000000, 0.000000000000000000 ) ) ;
#301 = LINE ( 'NONE', #46, #310 ) ;
#302 = ORIENTED_EDGE ( 'NONE', *, *, #11, .T. ) ;
#303 = EDGE_LOOP ( 'NONE', ( #142, #169 ) ) ;
#304 = CARTESIAN_POINT ( 'NONE',  ( -0.2170837012152992962, -6.822844948385385685E-21, 0.3750000000000000555 ) ) ;
#305 = VECTOR ( 'NONE', #280, 39.37007874015748143 ) ;
#306 = CARTESIAN_POINT ( 'NONE',  ( 0.2170837012152992962, -8.629126648930641522E-21, 0.3750000000000000555 ) ) ;
#307 = LINE ( 'NONE', #102, #196 ) ;
#308 = EDGE_CURVE ( 'NONE', #134, #298, #115, .T. ) ;
#309 = CYLINDRICAL_SURFACE ( 'NONE', #147, 0.3125000000000000000 ) ;
#310 = VECTOR ( 'NONE', #14, 39.37007874015748143 ) ;
#311 = CARTESIAN_POINT ( 'NONE',  ( 0.2170837012152992962, -8.629126648930641522E-21, 0.3750000000000000555 ) ) ;
#312 = LENGTH_MEASURE_WITH_UNIT ( LENGTH_MEASURE( 0.02539999999999999897 ), #133 );
#313 = VERTEX_POINT ( 'NONE', #184 ) ;
#314 = ORIENTED_EDGE ( 'NONE', *, *, #252, .T. ) ;
#315 = DIRECTION ( 'NONE',  ( -0.8660254037844383745, -0.5000000000000004441, 0.000000000000000000 ) ) ;
#316 = ORIENTED_EDGE ( 'NONE', *, *, #21, .F. ) ;
#317 = ORIENTED_EDGE ( 'NONE', *, *, #117, .F. ) ;
#318 = DIMENSIONAL_EXPONENTS ( 1.000000000000000000, 0.000000000000000000, 0.000000000000000000, 0.000000000000000000, 0.000000000000000000, 0.000000000000000000, 0.000000000000000000 ) ;
#319 = ORIENTED_EDGE ( 'NONE', *, *, #308, .F. ) ;
#320 = CARTESIAN_POINT ( 'NONE',  ( 0.3125000000000000000, 3.827021247335477694E-17, 0.000000000000000000 ) ) ;
#321 = VECTOR ( 'NONE', #179, 39.37007874015748143 ) ;
#322 = VERTEX_POINT ( 'NONE', #216 ) ;
#323 = LINE ( 'NONE', #17, #16 ) ;
#324 = PLANE ( 'NONE',  #140 ) ;
#325 = CIRCLE ( 'NONE', #9, 0.3125000000000000000 ) ;
#326 = PLANE ( 'NONE',  #103 ) ;
#327 = DIRECTION ( 'NONE',  ( 0.8660254037844385966, -0.5000000000000002220, 0.000000000000000000 ) ) ;
#328 = CARTESIAN_POINT ( 'NONE',  ( 0.3125000000000000000, 3.827021247335477694E-17, 0.3750000000000000555 ) ) ;
#329 = COLOUR_RGB ( '',0.7921568627450980005, 0.8196078431372548767, 0.9333333333333333481 ) ;
#330 = VECTOR ( 'NONE', #27, 39.37007874015748143 ) ;
#331 = CARTESIAN_POINT ( 'NONE',  ( -0.1085418506076496065, 0.1880000000000000282, 0.3750000000000000555 ) ) ;
#332 = ADVANCED_FACE ( 'NONE', ( #290 ), #161, .T. ) ;
#333 = FACE_OUTER_BOUND ( 'NONE', #13, .T. ) ;
ENDSEC;
END-ISO-10303-21;
